ISO-10303-21;
HEADER;
FILE_DESCRIPTION (( 'STEP AP203' ),
    '1' );
FILE_NAME ('BK7-LPBSC-25.4-532.STEP',
    '2020-12-22T03:14:45',
    ( '' ),
    ( '' ),
    'SwSTEP 2.0',
    'SolidWorks 2020',
    '' );
FILE_SCHEMA (( 'CONFIG_CONTROL_DESIGN' ));
ENDSEC;

DATA;
#1 = CC_DESIGN_APPROVAL ( #16, ( #283 ) ) ;
#2 = ORIENTED_EDGE ( 'NONE', *, *, #246, .T. ) ;
#3 = ORIENTED_EDGE ( 'NONE', *, *, #39, .T. ) ;
#4 = VECTOR ( 'NONE', #10, 1000.000000000000000 ) ;
#5 = ORIENTED_EDGE ( 'NONE', *, *, #89, .T. ) ;
#6 = PRODUCT_DEFINITION_FORMATION_WITH_SPECIFIED_SOURCE ( 'ANY', '', #242, .NOT_KNOWN. ) ;
#7 = DATE_AND_TIME ( #234, #109 ) ;
#8 = EDGE_LOOP ( 'NONE', ( #278, #230, #277 ) ) ;
#9 = PERSON_AND_ORGANIZATION_ROLE ( 'design_supplier' ) ;
#10 = DIRECTION ( 'NONE',  ( -2.220446049250312588E-16, 1.000000000000000000, 0.000000000000000000 ) ) ;
#11 = DIRECTION ( 'NONE',  ( -0.000000000000000000, 0.000000000000000000, 1.000000000000000000 ) ) ;
#12 = VECTOR ( 'NONE', #102, 999.9999999999998863 ) ;
#13 = CC_DESIGN_APPROVAL ( #281, ( #6 ) ) ;
#14 = PLANE ( 'NONE',  #105 ) ;
#15 = DIRECTION ( 'NONE',  ( 0.000000000000000000, 1.000000000000000000, 0.000000000000000000 ) ) ;
#16 = APPROVAL ( #238, 'UNSPECIFIED' ) ;
#17 = AXIS2_PLACEMENT_3D ( 'NONE', #44, #115, #169 ) ;
#18 = CARTESIAN_POINT ( 'NONE',  ( 12.69999999999999574, 12.69999999999999574, -12.69999999999999929 ) ) ;
#19 = LINE ( 'NONE', #319, #113 ) ;
#20 = EDGE_CURVE ( 'NONE', #259, #179, #160, .T. ) ;
#21 = CC_DESIGN_PERSON_AND_ORGANIZATION_ASSIGNMENT ( #125, #26, ( #260 ) ) ;
#22 = VERTEX_POINT ( 'NONE', #191 ) ;
#23 = ORIENTED_EDGE ( 'NONE', *, *, #258, .T. ) ;
#24 = DIRECTION ( 'NONE',  ( 1.000000000000000000, 0.000000000000000000, 0.000000000000000000 ) ) ;
#25 = ORIENTED_EDGE ( 'NONE', *, *, #306, .T. ) ;
#26 = PERSON_AND_ORGANIZATION_ROLE ( 'classification_officer' ) ;
#27 = ORIENTED_EDGE ( 'NONE', *, *, #20, .T. ) ;
#28 = VECTOR ( 'NONE', #292, 1000.000000000000000 ) ;
#29 = CARTESIAN_POINT ( 'NONE',  ( 12.69999999999999929, 12.69999999999999929, 12.69999999999999929 ) ) ;
#30 = PERSON_AND_ORGANIZATION_ROLE ( 'design_owner' ) ;
#31 =( GEOMETRIC_REPRESENTATION_CONTEXT ( 3 ) GLOBAL_UNCERTAINTY_ASSIGNED_CONTEXT ( ( #270 ) ) GLOBAL_UNIT_ASSIGNED_CONTEXT ( ( #151, #147, #74 ) ) REPRESENTATION_CONTEXT ( 'NONE', 'WORKASPACE' ) );
#32 = PRODUCT_DEFINITION_SHAPE ( 'NONE', 'NONE',  #283 ) ;
#33 = FACE_OUTER_BOUND ( 'NONE', #100, .T. ) ;
#34 = DIRECTION ( 'NONE',  ( 0.000000000000000000, 0.000000000000000000, -1.000000000000000000 ) ) ;
#35 = EDGE_CURVE ( 'NONE', #212, #177, #188, .T. ) ;
#36 = LINE ( 'NONE', #93, #183 ) ;
#37 = FACE_OUTER_BOUND ( 'NONE', #79, .T. ) ;
#38 = DIRECTION ( 'NONE',  ( 0.000000000000000000, 0.000000000000000000, 1.000000000000000000 ) ) ;
#39 = EDGE_CURVE ( 'NONE', #297, #212, #128, .T. ) ;
#40 = CC_DESIGN_SECURITY_CLASSIFICATION ( #260, ( #6 ) ) ;
#41 = DIRECTION ( 'NONE',  ( 0.000000000000000000, 0.000000000000000000, 1.000000000000000000 ) ) ;
#42 = EDGE_CURVE ( 'NONE', #153, #253, #161, .T. ) ;
#43 = ORIENTED_EDGE ( 'NONE', *, *, #42, .T. ) ;
#44 = CARTESIAN_POINT ( 'NONE',  ( 0.000000000000000000, 0.000000000000000000, -12.69999999999999929 ) ) ;
#45 = ORIENTED_EDGE ( 'NONE', *, *, #49, .T. ) ;
#46 = APPROVAL_PERSON_ORGANIZATION ( #232, #16, #51 ) ;
#47 = ORIENTED_EDGE ( 'NONE', *, *, #42, .F. ) ;
#48 = ORIENTED_EDGE ( 'NONE', *, *, #296, .T. ) ;
#49 = EDGE_CURVE ( 'NONE', #177, #97, #315, .T. ) ;
#50 = EDGE_LOOP ( 'NONE', ( #5, #305, #53, #25 ) ) ;
#51 = APPROVAL_ROLE ( '' ) ;
#52 = VECTOR ( 'NONE', #266, 1000.000000000000000 ) ;
#53 = ORIENTED_EDGE ( 'NONE', *, *, #145, .F. ) ;
#54 = DATE_TIME_ROLE ( 'classification_date' ) ;
#55 = CC_DESIGN_PERSON_AND_ORGANIZATION_ASSIGNMENT ( #152, #158, ( #6 ) ) ;
#56 = EDGE_CURVE ( 'NONE', #75, #177, #104, .T. ) ;
#57 = DATE_AND_TIME ( #80, #252 ) ;
#58 = LINE ( 'NONE', #83, #195 ) ;
#59 = CC_DESIGN_DATE_AND_TIME_ASSIGNMENT ( #178, #209, ( #283 ) ) ;
#60 = LINE ( 'NONE', #223, #207 ) ;
#61 = FACE_OUTER_BOUND ( 'NONE', #254, .T. ) ;
#62 = CC_DESIGN_APPROVAL ( #110, ( #260 ) ) ;
#63 = PLANE ( 'NONE',  #163 ) ;
#64 = ADVANCED_FACE ( 'NONE', ( #162 ), #289, .F. ) ;
#65 = CARTESIAN_POINT ( 'NONE',  ( 12.69999999999999929, 12.69999999999999929, -12.69999999999999929 ) ) ;
#66 = DIRECTION ( 'NONE',  ( -0.000000000000000000, 1.000000000000000000, -0.000000000000000000 ) ) ;
#67 = PLANE ( 'NONE',  #140 ) ;
#68 = EDGE_CURVE ( 'NONE', #97, #212, #136, .T. ) ;
#69 = APPROVAL_PERSON_ORGANIZATION ( #149, #281, #255 ) ;
#70 = DIRECTION ( 'NONE',  ( -1.000000000000000000, 0.000000000000000000, 0.000000000000000000 ) ) ;
#71 = FACE_OUTER_BOUND ( 'NONE', #251, .T. ) ;
#72 = CC_DESIGN_PERSON_AND_ORGANIZATION_ASSIGNMENT ( #303, #30, ( #242 ) ) ;
#73 = ORIENTED_EDGE ( 'NONE', *, *, #56, .F. ) ;
#74 =( NAMED_UNIT ( * ) SI_UNIT ( $, .STERADIAN. ) SOLID_ANGLE_UNIT ( ) );
#75 = VERTEX_POINT ( 'NONE', #85 ) ;
#76 = COORDINATED_UNIVERSAL_TIME_OFFSET ( 8, 0, .AHEAD. ) ;
#77 = ORIENTED_EDGE ( 'NONE', *, *, #35, .F. ) ;
#78 = APPROVAL_DATE_TIME ( #7, #110 ) ;
#79 = EDGE_LOOP ( 'NONE', ( #48, #186, #120, #119 ) ) ;
#80 = CALENDAR_DATE ( 2020, 22, 12 ) ;
#81 = CC_DESIGN_PERSON_AND_ORGANIZATION_ASSIGNMENT ( #129, #9, ( #6 ) ) ;
#82 = VECTOR ( 'NONE', #284, 1000.000000000000000 ) ;
#83 = CARTESIAN_POINT ( 'NONE',  ( 12.69999999999999929, 12.69999999999999929, -12.69999999999999929 ) ) ;
#84 = CALENDAR_DATE ( 2020, 22, 12 ) ;
#85 = CARTESIAN_POINT ( 'NONE',  ( -12.69999999999999574, -12.69999999999999396, 12.69999999999999929 ) ) ;
#86 = CARTESIAN_POINT ( 'NONE',  ( -12.70000000000000284, 12.70000000000000284, -12.69999999999999929 ) ) ;
#87 = CARTESIAN_POINT ( 'NONE',  ( 12.69999999999999574, 12.69999999999999574, 12.69999999999999929 ) ) ;
#88 = DIRECTION ( 'NONE',  ( -0.000000000000000000, -0.000000000000000000, -1.000000000000000000 ) ) ;
#89 = EDGE_CURVE ( 'NONE', #253, #144, #58, .T. ) ;
#90 = FACE_OUTER_BOUND ( 'NONE', #157, .T. ) ;
#91 = ADVANCED_FACE ( 'NONE', ( #221 ), #243, .T. ) ;
#92 = CARTESIAN_POINT ( 'NONE',  ( -12.70000000000000284, 12.70000000000000284, 12.69999999999999929 ) ) ;
#93 = CARTESIAN_POINT ( 'NONE',  ( -12.69999999999999751, -12.69999999999999929, 12.69999999999999929 ) ) ;
#94 = LINE ( 'NONE', #197, #28 ) ;
#95 = ADVANCED_FACE ( 'NONE', ( #33 ), #244, .T. ) ;
#96 = APPLICATION_CONTEXT ( 'configuration controlled 3d designs of mechanical parts and assemblies' ) ;
#97 = VERTEX_POINT ( 'NONE', #86 ) ;
#98 = EDGE_LOOP ( 'NONE', ( #77, #256, #298, #231 ) ) ;
#99 = COORDINATED_UNIVERSAL_TIME_OFFSET ( 8, 0, .AHEAD. ) ;
#100 = EDGE_LOOP ( 'NONE', ( #27, #182, #155 ) ) ;
#101 = ORIENTED_EDGE ( 'NONE', *, *, #68, .F. ) ;
#102 = DIRECTION ( 'NONE',  ( -0.7071067811865475727, -0.7071067811865475727, 0.000000000000000000 ) ) ;
#103 = APPROVAL_STATUS ( 'not_yet_approved' ) ;
#104 = LINE ( 'NONE', #107, #135 ) ;
#105 = AXIS2_PLACEMENT_3D ( 'NONE', #139, #225, #318 ) ;
#106 = CARTESIAN_POINT ( 'NONE',  ( 0.000000000000000000, 0.000000000000000000, 12.69999999999999929 ) ) ;
#107 = CARTESIAN_POINT ( 'NONE',  ( -12.69999999999999574, -12.69999999999999396, 12.69999999999999929 ) ) ;
#108 = EDGE_CURVE ( 'NONE', #301, #97, #60, .T. ) ;
#109 = LOCAL_TIME ( 11, 14, 45.00000000000000000, #309 ) ;
#110 = APPROVAL ( #103, 'UNSPECIFIED' ) ;
#111 = CARTESIAN_POINT ( 'NONE',  ( -12.69999999999999751, -12.69999999999999929, -12.69999999999999929 ) ) ;
#112 = CLOSED_SHELL ( 'NONE', ( #261, #181, #148, #95, #64 ) ) ;
#113 = VECTOR ( 'NONE', #293, 999.9999999999998863 ) ;
#114 = LINE ( 'NONE', #166, #222 ) ;
#115 = DIRECTION ( 'NONE',  ( 0.000000000000000000, 0.000000000000000000, 1.000000000000000000 ) ) ;
#116 = DIRECTION ( 'NONE',  ( 1.000000000000000000, -2.220446049250312588E-16, 0.000000000000000000 ) ) ;
#117 = FACE_OUTER_BOUND ( 'NONE', #98, .T. ) ;
#118 = EDGE_CURVE ( 'NONE', #179, #153, #295, .T. ) ;
#119 = ORIENTED_EDGE ( 'NONE', *, *, #287, .T. ) ;
#120 = ORIENTED_EDGE ( 'NONE', *, *, #20, .F. ) ;
#121 = DIRECTION ( 'NONE',  ( 0.000000000000000000, 0.000000000000000000, 1.000000000000000000 ) ) ;
#122 = EDGE_LOOP ( 'NONE', ( #101, #206, #23, #3 ) ) ;
#123 = APPROVAL_ROLE ( '' ) ;
#124 = ORIENTED_EDGE ( 'NONE', *, *, #296, .F. ) ;
#125 = PERSON_AND_ORGANIZATION ( #193, #274 ) ;
#126 = EDGE_CURVE ( 'NONE', #179, #22, #36, .T. ) ;
#127 = APPLICATION_PROTOCOL_DEFINITION ( 'international standard', 'config_control_design', 1994, #203 ) ;
#128 = LINE ( 'NONE', #87, #52 ) ;
#129 = PERSON_AND_ORGANIZATION ( #193, #274 ) ;
#130 = DIRECTION ( 'NONE',  ( -0.000000000000000000, 1.000000000000000000, -0.000000000000000000 ) ) ;
#131 = VECTOR ( 'NONE', #116, 1000.000000000000000 ) ;
#132 = ORIENTED_EDGE ( 'NONE', *, *, #68, .T. ) ;
#133 = DESIGN_CONTEXT ( 'detailed design', #203, 'design' ) ;
#134 = ADVANCED_BREP_SHAPE_REPRESENTATION ( 'BK7-LPBSC-25.4-532', ( #276, #165, #310 ), #31 ) ;
#135 = VECTOR ( 'NONE', #34, 1000.000000000000000 ) ;
#136 = LINE ( 'NONE', #308, #82 ) ;
#137 = CC_DESIGN_PERSON_AND_ORGANIZATION_ASSIGNMENT ( #176, #205, ( #283 ) ) ;
#138 = CARTESIAN_POINT ( 'NONE',  ( 12.69999999999999929, 12.69999999999999929, 12.69999999999999929 ) ) ;
#139 = CARTESIAN_POINT ( 'NONE',  ( 12.69999999999999929, 12.69999999999999929, 12.69999999999999929 ) ) ;
#140 = AXIS2_PLACEMENT_3D ( 'NONE', #171, #227, #249 ) ;
#141 = DIRECTION ( 'NONE',  ( -2.220446049250312588E-16, 1.000000000000000000, 0.000000000000000000 ) ) ;
#142 = CARTESIAN_POINT ( 'NONE',  ( 12.69999999999999929, -12.69999999999999929, 12.69999999999999929 ) ) ;
#143 = CARTESIAN_POINT ( 'NONE',  ( 12.69999999999999929, 12.69999999999999929, 12.69999999999999929 ) ) ;
#144 = VERTEX_POINT ( 'NONE', #226 ) ;
#145 = EDGE_CURVE ( 'NONE', #22, #259, #168, .T. ) ;
#146 = VECTOR ( 'NONE', #294, 1000.000000000000000 ) ;
#147 =( NAMED_UNIT ( * ) PLANE_ANGLE_UNIT ( ) SI_UNIT ( $, .RADIAN. ) );
#148 = ADVANCED_FACE ( 'NONE', ( #267 ), #271, .F. ) ;
#149 = PERSON_AND_ORGANIZATION ( #193, #274 ) ;
#150 = EDGE_LOOP ( 'NONE', ( #124, #280, #47 ) ) ;
#151 =( LENGTH_UNIT ( ) NAMED_UNIT ( * ) SI_UNIT ( .MILLI., .METRE. ) );
#152 = PERSON_AND_ORGANIZATION ( #193, #274 ) ;
#153 = VERTEX_POINT ( 'NONE', #111 ) ;
#154 = APPROVAL_STATUS ( 'not_yet_approved' ) ;
#155 = ORIENTED_EDGE ( 'NONE', *, *, #145, .T. ) ;
#156 = DATE_AND_TIME ( #184, #202 ) ;
#157 = EDGE_LOOP ( 'NONE', ( #286, #73, #2, #233 ) ) ;
#158 = PERSON_AND_ORGANIZATION_ROLE ( 'creator' ) ;
#159 = AXIS2_PLACEMENT_3D ( 'NONE', #311, #11, #285 ) ;
#160 = LINE ( 'NONE', #29, #220 ) ;
#161 = LINE ( 'NONE', #265, #300 ) ;
#162 = FACE_OUTER_BOUND ( 'NONE', #150, .T. ) ;
#163 = AXIS2_PLACEMENT_3D ( 'NONE', #275, #15, #170 ) ;
#164 = CARTESIAN_POINT ( 'NONE',  ( -12.69999999999999751, -12.69999999999999929, 12.69999999999999929 ) ) ;
#165 = MANIFOLD_SOLID_BREP ( '¾µÏ', #240 ) ;
#166 = CARTESIAN_POINT ( 'NONE',  ( -12.69999999999999574, -12.69999999999999396, 12.69999999999999929 ) ) ;
#167 = LINE ( 'NONE', #65, #317 ) ;
#168 = LINE ( 'NONE', #138, #228 ) ;
#169 = DIRECTION ( 'NONE',  ( -2.220446049250312588E-16, 1.000000000000000000, 0.000000000000000000 ) ) ;
#170 = DIRECTION ( 'NONE',  ( 0.000000000000000000, -0.000000000000000000, 1.000000000000000000 ) ) ;
#171 = CARTESIAN_POINT ( 'NONE',  ( 12.69999999999999574, 12.69999999999999574, 12.69999999999999929 ) ) ;
#172 = DIRECTION ( 'NONE',  ( 1.000000000000000000, 0.000000000000000000, 0.000000000000000000 ) ) ;
#173 = ORIENTED_EDGE ( 'NONE', *, *, #35, .T. ) ;
#174 = AXIS2_PLACEMENT_3D ( 'NONE', #264, #219, #313 ) ;
#175 = PLANE ( 'NONE',  #185 ) ;
#176 = PERSON_AND_ORGANIZATION ( #193, #274 ) ;
#177 = VERTEX_POINT ( 'NONE', #245 ) ;
#178 = DATE_AND_TIME ( #213, #288 ) ;
#179 = VERTEX_POINT ( 'NONE', #198 ) ;
#180 = SHAPE_DEFINITION_REPRESENTATION ( #32, #134 ) ;
#181 = ADVANCED_FACE ( 'NONE', ( #61 ), #63, .F. ) ;
#182 = ORIENTED_EDGE ( 'NONE', *, *, #126, .T. ) ;
#183 = VECTOR ( 'NONE', #172, 1000.000000000000000 ) ;
#184 = CALENDAR_DATE ( 2020, 22, 12 ) ;
#185 = AXIS2_PLACEMENT_3D ( 'NONE', #210, #208, #121 ) ;
#186 = ORIENTED_EDGE ( 'NONE', *, *, #118, .F. ) ;
#187 = CARTESIAN_POINT ( 'NONE',  ( 0.000000000000000000, 0.000000000000000000, 0.000000000000000000 ) ) ;
#188 = LINE ( 'NONE', #214, #12 ) ;
#189 = DIRECTION ( 'NONE',  ( -0.7071067811865474617, -0.7071067811865474617, 0.000000000000000000 ) ) ;
#190 = LOCAL_TIME ( 11, 14, 45.00000000000000000, #299 ) ;
#191 = CARTESIAN_POINT ( 'NONE',  ( 12.69999999999999929, -12.69999999999999929, 12.69999999999999929 ) ) ;
#192 = ADVANCED_FACE ( 'NONE', ( #90 ), #273, .F. ) ;
#193 = PERSON ( 'UNSPECIFIED', 'UNSPECIFIED', 'UNSPECIFIED', ('UNSPECIFIED'), ('UNSPECIFIED'), ('UNSPECIFIED') ) ;
#194 = CARTESIAN_POINT ( 'NONE',  ( 12.69999999999999929, -12.69999999999999929, -12.69999999999999929 ) ) ;
#195 = VECTOR ( 'NONE', #130, 1000.000000000000000 ) ;
#196 = CARTESIAN_POINT ( 'NONE',  ( -12.69999999999999574, -12.69999999999999396, 12.69999999999999929 ) ) ;
#197 = CARTESIAN_POINT ( 'NONE',  ( 12.69999999999999929, 12.69999999999999929, 12.69999999999999929 ) ) ;
#198 = CARTESIAN_POINT ( 'NONE',  ( -12.69999999999999751, -12.69999999999999929, 12.69999999999999929 ) ) ;
#199 = LINE ( 'NONE', #142, #146 ) ;
#200 = EDGE_CURVE ( 'NONE', #297, #75, #19, .T. ) ;
#201 = FACE_OUTER_BOUND ( 'NONE', #122, .T. ) ;
#202 = LOCAL_TIME ( 11, 14, 45.00000000000000000, #76 ) ;
#203 = APPLICATION_CONTEXT ( 'configuration controlled 3d designs of mechanical parts and assemblies' ) ;
#204 = ORIENTED_EDGE ( 'NONE', *, *, #126, .F. ) ;
#205 = PERSON_AND_ORGANIZATION_ROLE ( 'creator' ) ;
#206 = ORIENTED_EDGE ( 'NONE', *, *, #108, .F. ) ;
#207 = VECTOR ( 'NONE', #316, 1000.000000000000000 ) ;
#208 = DIRECTION ( 'NONE',  ( 2.220446049250312588E-16, -1.000000000000000000, 0.000000000000000000 ) ) ;
#209 = DATE_TIME_ROLE ( 'creation_date' ) ;
#210 = CARTESIAN_POINT ( 'NONE',  ( 12.69999999999999574, 12.69999999999999574, 12.69999999999999929 ) ) ;
#211 = DIRECTION ( 'NONE',  ( 0.000000000000000000, 0.000000000000000000, 1.000000000000000000 ) ) ;
#212 = VERTEX_POINT ( 'NONE', #18 ) ;
#213 = CALENDAR_DATE ( 2020, 22, 12 ) ;
#214 = CARTESIAN_POINT ( 'NONE',  ( 12.69999999999999574, 12.69999999999999574, -12.69999999999999929 ) ) ;
#215 = DATE_AND_TIME ( #84, #190 ) ;
#216 = PRODUCT_RELATED_PRODUCT_CATEGORY ( 'detail', '', ( #242 ) ) ;
#217 = APPROVAL_PERSON_ORGANIZATION ( #304, #110, #123 ) ;
#218 = DIRECTION ( 'NONE',  ( 0.000000000000000000, 0.000000000000000000, 1.000000000000000000 ) ) ;
#219 = DIRECTION ( 'NONE',  ( -0.000000000000000000, 0.000000000000000000, 1.000000000000000000 ) ) ;
#220 = VECTOR ( 'NONE', #189, 1000.000000000000114 ) ;
#221 = FACE_OUTER_BOUND ( 'NONE', #8, .T. ) ;
#222 = VECTOR ( 'NONE', #141, 1000.000000000000000 ) ;
#223 = CARTESIAN_POINT ( 'NONE',  ( -12.70000000000000284, 12.70000000000000284, 12.69999999999999929 ) ) ;
#224 = PLANE ( 'NONE',  #17 ) ;
#225 = DIRECTION ( 'NONE',  ( 0.7071067811865475727, -0.7071067811865475727, 0.000000000000000000 ) ) ;
#226 = CARTESIAN_POINT ( 'NONE',  ( 12.69999999999999929, 12.69999999999999929, -12.69999999999999929 ) ) ;
#227 = DIRECTION ( 'NONE',  ( -0.7071067811865475727, 0.7071067811865475727, 0.000000000000000000 ) ) ;
#228 = VECTOR ( 'NONE', #66, 1000.000000000000000 ) ;
#229 = ORIENTED_EDGE ( 'NONE', *, *, #118, .T. ) ;
#230 = ORIENTED_EDGE ( 'NONE', *, *, #258, .F. ) ;
#231 = ORIENTED_EDGE ( 'NONE', *, *, #56, .T. ) ;
#232 = PERSON_AND_ORGANIZATION ( #193, #274 ) ;
#233 = ORIENTED_EDGE ( 'NONE', *, *, #108, .T. ) ;
#234 = CALENDAR_DATE ( 2020, 22, 12 ) ;
#235 = ORIENTED_EDGE ( 'NONE', *, *, #306, .F. ) ;
#236 = MECHANICAL_CONTEXT ( 'NONE', #96, 'mechanical' ) ;
#237 = CC_DESIGN_DATE_AND_TIME_ASSIGNMENT ( #215, #54, ( #260 ) ) ;
#238 = APPROVAL_STATUS ( 'not_yet_approved' ) ;
#239 = DIRECTION ( 'NONE',  ( 1.000000000000000000, 0.000000000000000000, 0.000000000000000000 ) ) ;
#240 = CLOSED_SHELL ( 'NONE', ( #314, #192, #320, #91, #282 ) ) ;
#241 = APPROVAL_DATE_TIME ( #156, #281 ) ;
#242 = PRODUCT ( 'BK7-LPBSC-25.4-532', 'BK7-LPBSC-25.4-532', '', ( #236 ) ) ;
#243 = PLANE ( 'NONE',  #321 ) ;
#244 = PLANE ( 'NONE',  #174 ) ;
#245 = CARTESIAN_POINT ( 'NONE',  ( -12.69999999999999574, -12.69999999999999396, -12.69999999999999929 ) ) ;
#246 = EDGE_CURVE ( 'NONE', #75, #301, #114, .T. ) ;
#247 = AXIS2_PLACEMENT_3D ( 'NONE', #196, #291, #41 ) ;
#248 = CARTESIAN_POINT ( 'NONE',  ( 12.69999999999999574, 12.69999999999999574, 12.69999999999999929 ) ) ;
#249 = DIRECTION ( 'NONE',  ( 0.7071067811865475727, 0.7071067811865475727, 0.000000000000000000 ) ) ;
#250 = VECTOR ( 'NONE', #88, 1000.000000000000000 ) ;
#251 = EDGE_LOOP ( 'NONE', ( #173, #45, #132 ) ) ;
#252 = LOCAL_TIME ( 11, 14, 45.00000000000000000, #99 ) ;
#253 = VERTEX_POINT ( 'NONE', #194 ) ;
#254 = EDGE_LOOP ( 'NONE', ( #43, #235, #204, #229 ) ) ;
#255 = APPROVAL_ROLE ( '' ) ;
#256 = ORIENTED_EDGE ( 'NONE', *, *, #39, .F. ) ;
#257 = SECURITY_CLASSIFICATION_LEVEL ( 'unclassified' ) ;
#258 = EDGE_CURVE ( 'NONE', #301, #297, #268, .T. ) ;
#259 = VERTEX_POINT ( 'NONE', #143 ) ;
#260 = SECURITY_CLASSIFICATION ( '', '', #257 ) ;
#261 = ADVANCED_FACE ( 'NONE', ( #37 ), #14, .F. ) ;
#262 = APPROVAL_DATE_TIME ( #57, #16 ) ;
#263 = CARTESIAN_POINT ( 'NONE',  ( -12.69999999999999574, -12.69999999999999396, -12.69999999999999929 ) ) ;
#264 = CARTESIAN_POINT ( 'NONE',  ( 0.000000000000000000, 0.000000000000000000, 12.69999999999999929 ) ) ;
#265 = CARTESIAN_POINT ( 'NONE',  ( -12.69999999999999751, -12.69999999999999929, -12.69999999999999929 ) ) ;
#266 = DIRECTION ( 'NONE',  ( 0.000000000000000000, 0.000000000000000000, -1.000000000000000000 ) ) ;
#267 = FACE_OUTER_BOUND ( 'NONE', #50, .T. ) ;
#268 = LINE ( 'NONE', #248, #131 ) ;
#269 = DIRECTION ( 'NONE',  ( -0.7071067811865474617, -0.7071067811865474617, 0.000000000000000000 ) ) ;
#270 = UNCERTAINTY_MEASURE_WITH_UNIT (LENGTH_MEASURE( 1.000000000000000082E-05 ), #151, 'distance_accuracy_value', 'NONE');
#271 = PLANE ( 'NONE',  #307 ) ;
#272 = CARTESIAN_POINT ( 'NONE',  ( 12.69999999999999574, 12.69999999999999574, 12.69999999999999929 ) ) ;
#273 = PLANE ( 'NONE',  #247 ) ;
#274 = ORGANIZATION ( 'UNSPECIFIED', 'UNSPECIFIED', '' ) ;
#275 = CARTESIAN_POINT ( 'NONE',  ( -12.69999999999999751, -12.69999999999999929, 12.69999999999999929 ) ) ;
#276 = MANIFOLD_SOLID_BREP ( 'Í¹Ì¨-À', #112 ) ;
#277 = ORIENTED_EDGE ( 'NONE', *, *, #246, .F. ) ;
#278 = ORIENTED_EDGE ( 'NONE', *, *, #200, .F. ) ;
#279 = COORDINATED_UNIVERSAL_TIME_OFFSET ( 8, 0, .AHEAD. ) ;
#280 = ORIENTED_EDGE ( 'NONE', *, *, #89, .F. ) ;
#281 = APPROVAL ( #154, 'UNSPECIFIED' ) ;
#282 = ADVANCED_FACE ( 'NONE', ( #71 ), #224, .F. ) ;
#283 = PRODUCT_DEFINITION ( 'UNKNOWN', '', #6, #133 ) ;
#284 = DIRECTION ( 'NONE',  ( 1.000000000000000000, -2.220446049250312588E-16, 0.000000000000000000 ) ) ;
#285 = DIRECTION ( 'NONE',  ( 1.000000000000000000, 0.000000000000000000, 0.000000000000000000 ) ) ;
#286 = ORIENTED_EDGE ( 'NONE', *, *, #49, .F. ) ;
#287 = EDGE_CURVE ( 'NONE', #259, #144, #94, .T. ) ;
#288 = LOCAL_TIME ( 11, 14, 45.00000000000000000, #279 ) ;
#289 = PLANE ( 'NONE',  #159 ) ;
#290 = CARTESIAN_POINT ( 'NONE',  ( 12.69999999999999929, 12.69999999999999929, 12.69999999999999929 ) ) ;
#291 = DIRECTION ( 'NONE',  ( 1.000000000000000000, -2.220446049250312588E-16, 0.000000000000000000 ) ) ;
#292 = DIRECTION ( 'NONE',  ( -0.000000000000000000, -0.000000000000000000, -1.000000000000000000 ) ) ;
#293 = DIRECTION ( 'NONE',  ( -0.7071067811865475727, -0.7071067811865475727, 0.000000000000000000 ) ) ;
#294 = DIRECTION ( 'NONE',  ( -0.000000000000000000, -0.000000000000000000, -1.000000000000000000 ) ) ;
#295 = LINE ( 'NONE', #164, #250 ) ;
#296 = EDGE_CURVE ( 'NONE', #144, #153, #167, .T. ) ;
#297 = VERTEX_POINT ( 'NONE', #272 ) ;
#298 = ORIENTED_EDGE ( 'NONE', *, *, #200, .T. ) ;
#299 = COORDINATED_UNIVERSAL_TIME_OFFSET ( 8, 0, .AHEAD. ) ;
#300 = VECTOR ( 'NONE', #239, 1000.000000000000000 ) ;
#301 = VERTEX_POINT ( 'NONE', #92 ) ;
#302 = APPLICATION_PROTOCOL_DEFINITION ( 'international standard', 'config_control_design', 1994, #96 ) ;
#303 = PERSON_AND_ORGANIZATION ( #193, #274 ) ;
#304 = PERSON_AND_ORGANIZATION ( #193, #274 ) ;
#305 = ORIENTED_EDGE ( 'NONE', *, *, #287, .F. ) ;
#306 = EDGE_CURVE ( 'NONE', #22, #253, #199, .T. ) ;
#307 = AXIS2_PLACEMENT_3D ( 'NONE', #290, #70, #38 ) ;
#308 = CARTESIAN_POINT ( 'NONE',  ( 12.69999999999999574, 12.69999999999999574, -12.69999999999999929 ) ) ;
#309 = COORDINATED_UNIVERSAL_TIME_OFFSET ( 8, 0, .AHEAD. ) ;
#310 = AXIS2_PLACEMENT_3D ( 'NONE', #187, #211, #24 ) ;
#311 = CARTESIAN_POINT ( 'NONE',  ( 0.000000000000000000, 0.000000000000000000, -12.69999999999999929 ) ) ;
#312 = DIRECTION ( 'NONE',  ( -2.220446049250312588E-16, 1.000000000000000000, 0.000000000000000000 ) ) ;
#313 = DIRECTION ( 'NONE',  ( 1.000000000000000000, 0.000000000000000000, 0.000000000000000000 ) ) ;
#314 = ADVANCED_FACE ( 'NONE', ( #117 ), #67, .F. ) ;
#315 = LINE ( 'NONE', #263, #4 ) ;
#316 = DIRECTION ( 'NONE',  ( 0.000000000000000000, 0.000000000000000000, -1.000000000000000000 ) ) ;
#317 = VECTOR ( 'NONE', #269, 1000.000000000000114 ) ;
#318 = DIRECTION ( 'NONE',  ( 0.7071067811865474617, 0.7071067811865474617, 0.000000000000000000 ) ) ;
#319 = CARTESIAN_POINT ( 'NONE',  ( 12.69999999999999574, 12.69999999999999574, 12.69999999999999929 ) ) ;
#320 = ADVANCED_FACE ( 'NONE', ( #201 ), #175, .F. ) ;
#321 = AXIS2_PLACEMENT_3D ( 'NONE', #106, #218, #312 ) ;
ENDSEC;
END-ISO-10303-21;
